Band Photos
internnewsthebandthemusicontourextrascommunity
41 User online
lyrics
discographie
videostills
gitarrentabs
reviews

| themusic | gitarrentabs |

WHO FEELS LOVE? 

Noel Gallagher

Tabbed by David Rogers Rogersd@eircom.net

Open "D" tuning DGDGBd

CHORDS USED:

  G Fmaj9 Am7 Gmaj9 G/B
D-5---0----0----0----0
B-3---1----1----3----3
G-0---0----0----0----0
D-0---3----2----5----0
G-0---3----0----5----4
D-x---X----X----X----X

VERSE 1

G
Found what I lost inside
G
My spirit has been purified
G
Take a thorn from my pride and
G
Hand in hand we'll take a walk outside

CHORUS

Fmaj9                                Am7
Thank you for the sun, the one that shines on everyone
    Gmaj9       G/B
Who feels love
    Fmaj9                               Am7
Now there's a million years between my fantasies and fears
  
  G
I feel love

VERSE 2

G
Leaving all that I see
G
Now all my emotions fill the air I breathe

CHORUS

Fmaj9                          Am7                        Cadd9       G/B
Now you understand hat this is not the promised land they spoke of
       Fmaj9                           Am7               G      
Theres nothing more to be if you could be the remedy who heals love

GUITAR BRIDGE

D-------------------------------------
B------3-------3-------3------3-------
G----4---4---4---4---4---4--4---4-----
D--5-------3-------2-------0----------
G-------------------------------------
D-------------------------------------

(x3, then;)

D---------------------------------------------------------------------
B------3-------3-------3-------3-------3-------3-------3-------3------
G----4---4---4---4---4---4---4---4---4---4---4---4---4---4---4---4----
D--5-------3-------2-------2-------1-------1-------1-------1----------
G---------------------------------------------------------------------
D---------------------------------------------------------------------


SOLO (OVER G Bb6 Am7)

D--------------------9-----10--
B--------------6--8-----8------
G--0--4--5--7------------------
D------------------------------
G------------------------------
D------------------------------

(x3)

SOLO 2 (OVER CHORUS CHORDS)

E--12-12-12-12-12-12-12-12\10---
B-----------------------------8-

(x8, then over next chorus)

OUTRO CHORUS

Fmaj9                                Am7
Thank you for the sun, the one that shines on everyone
    Gmaj9       G/B
Who feels love
    Fmaj9                               Am7
Now there's a million years between my fantasies and fears
   Gmaj9        G/B
I feel love
Fmaj9                                Am7
Thank you for the sun, the one that shines on everyone
    Gmaj9       G/B
Who feels love
    Fmaj9                               Am7
Now there's a million years between my fantasies and fears
  G
I feel love



sadsong.net erfasst Besucherdaten und wertet diese mit Matomo aus.
Falls dies nicht gewünscht ist, klicke bitte hier und setze den Matomo-Deaktivierungs-Cookie.