Band Photos
internnewsthebandthemusicontourextrascommunity
8 User online
lyrics
discographie
videostills
gitarrentabs
reviews

| themusic | gitarrentabs |

Supersonic
(N. Gallagher)
Tabbed by:
Stephen Hope <Nutter_2k@Hotmail.com>

Chords Used: 

F#m11 (044200)
Asus2 (x02200)
B7    (021202)
F#5   (244xxx)
E5    (022xxx)
A     (x02220)
B     (x24442)
F#m   (244222)
C#7   (x46464)
D     (xx0232)
E     (022100)
F#    (244322)

Intro:

     F#m11           Asus2    B7
e|---------0----------------------|
B|-----------0---------0------0---|
G|-------2-----2-------2------2---|	
D|-----4---------4-----2------1---|
A|---4-------------0---0---0--2---|
E|--------------------------------|

Noel plays this 3 times and on the third time he finishes it off with 

e|--------------|
B|--------------|    
G|--------------|     b = Half Bend
D|-----------4--|    
A|----2b---0----|
E|--------------|

Verse 1:

(((((Bonehead plays Chords)))))))) 
(((((Noel plays little riffs))))))) 

The chord sequence is below with the words but as the verse progresses Noel
plays 2 little riffs throughout.  For timings of the riffs just listen to
the CD

Riff 1 

e|---7-------|
B|-----5-----|
G|---------6-|	
D|-----------|
A|-----------|
E|-----------|







Riff 2

e|--------------|
B|--------------|    
G|--------------|     b = Half Bend
D|-----------4--|     
A|----2b---0----|
E|--------------|


          F#5      E5 F#5  E5  A B
I need to be myself
             F#5      E5 F#5  E5  A B
I don't need no one else
       F#5      E5 F#5  
I'm feeling supersonic
E5   A       B
Give me gin and tonic
F#5          E5 F#5     E5  A        B
You can have it all but how much do you want it
      F#5      E5 F#5  E5  A B
You make me laugh
             F#5      E5 F#5  E5  A B
Give me your autograph
         F#5      E5 F#5  
Can I ride with you 
        E5  A   B
In your B  M  W
         F#5      E5 F#5
You can sail with me
        E5  A    B
In my yellow submarine

Bridge 1:

((((Bonehead plays chord progression))))
((((Noel plays little riffs))))

The chords follow with the words and for the timings of the little riffs
listen to the CD

Riff 1

e|--------------------|
B|--------------------|
G|--------------------|	
D|--------------------|
A|---2-2-4-2-2-2-4-2--|
E|-0-0-0-0-0-0-0-0-0--|

Riff 2

e|---7-------|
B|-----5-----|
G|---------6-|	
D|-----------|
A|-----------|
E|-----------|







Riff 3

e|--------------4-----------------|
B|-----6---------------6----------|
G|-4-------4--------------6---4---|	
D|-6---------6------------------6-|
A|--------------------------------|
E|--------------------------------|

            E5
You need to find out
                                    F#m
Cause no-one gonna tell you what I'm on about
            E5
You need to find a way
                        C#7
For what you wanna say

But before tomorrow 


Chorus:

((((Bonehead plays chords))))
((((Noel Plays Riffs)))))))))

The chords follow with the words and for the timings of the little riffs
listen to the CD

Riff 1

e|-----------------------------------|
B|-----------------------------------|
G|-----------------------------------|	
D|------2--------------------2-------|  s = Slide
A|-2s4----4--2---0---0---2s4---4-----|
E|-------------------------------2---|

      D             A             E      F#
Cause my friend said he'd take you home  
   D          A          E    F#
He sits in a corner all alone
   D      A         E     F#     
He lives under a waterfall
D            A        E          F#          D     A
No-body can see him nobody can ever hear him call
   E           F#          D    A
No-body can ever hear him call

Bonehead keeps repeating the chord progression D  A  E  F#
While Noel plays the following solo

Solo ((((Overlaps the last line of the verse))))

B = Full Bend
b = Half Bend
h = Hammer On
p = Pull Off

e|-------------------------------------------------------------------|
B|-------------------------------------------------------------17----|
G|--16B-16B--14---16--14----------14-------------16B--16B--14--------|	
D|-----------------------16-14-16----16--14--------------------------|
A|-------------------------------------------------------------------|
E|-------------------------------------------------------------------|

e|-------------------------------------------------------------------|
B|-------------------------------------------------------------------|
G|--16b--16--14-------14h16p14-----14---16B-16B--14--16--14----------|	
D|--------------14h16----------16---------------------------16-14-16-|
A|-------------------------------------------------------------------|
E|-------------------------------------------------------------------|

e|-------------------------------------------------------------------|
B|------------------------17-----------------------------------------|
G|14--------16B--16B--14------16b-16-14--------14h16p14----14--------|	
D|---16-14-------------------------------14h16----------16-----------|
A|-------------------------------------------------------------------|
E|-------------------------------------------------------------------|

e|--0------------4---------------------------------------------------|
B|--0------------6---------------------------------------------------|
G|--1------------4---------------------------------------------------|
D|---------------6-----------------------------------4---------------|
A|---------------4----------------------2b-------0-------------------|
E|----------0--------------------------------------------------------|

Play stuff for verse 1, bridge and chorus again but the words for verse 2 and
bridge 2 are as follows

Verse 2

You need to be yourself
You can't be no one else
I know a girl called Elsa
She's into Alka Seltzer
She sniffs it through a cane
On a supersonic train
And she made me laugh
I got her autograph
She done it with a doctor
On a helicopter
She's sniffin' in her tissue
Sellin' the Big Issue

Bridge 2

When she finds out
No-ones gonna tell her what I'm on about
You need to find a way
For what you want to say
But before tomorrow

Outro:

((((Bonehead Plays Chords))))
((((((Noel Plays Solo))))))

Boneheads Chord sequence is D - A - E - F#

Noels Whoop Ass Solo is

e|-------------------------------------------------------------------|
B|-------------------------------------------------------------17----|
G|--16B-16B--14---16--14----------14-------------16B--16B--14--------|	
D|-----------------------16-14-16----16--14--------------------------|
A|-------------------------------------------------------------------|
E|-------------------------------------------------------------------|


e|-------------------------------------------------------------------|
B|-------------------------------------------------------------------|
G|--16b--16--14-------14h16p14-----14---16B-16B--14--16--14----------|	
D|--------------14h16----------16---------------------------16-14-16-|
A|-------------------------------------------------------------------|
E|-------------------------------------------------------------------|

e|-------------------------------------------------------------------|
B|-------------------------------------------------------------------|
G|14-------------14---16b--16b--16b--16b---16bp14---14-14---14-14h16-|	
D|---16-14----16---------------------------------16------------------|
A|-------------------------------------------------------------------|
E|-------------------------------------------------------------------|

e|-------------------------------------------------------------------|
B|-------------------------------------------------------------------|
G|-14----16B--16B--14--16---14----------14---------------------------|
D|-----------------------------16-14-16----16-14---16B--16B--14--16--|
A|-------------------------------------------------------------------|
E|-------------------------------------------------------------------|

e|-------------------------------------------------------------------|
B|-------------------------------------------------------------------|
G|-16b--16--14------- 14h16-------14--16B-16B--14--16--14----------14|	
D|--------------14h16-------14h16-------------------------16-14-16---|
A|-------------------------------------------------------------------|
E|-------------------------------------------------------------------|

e|-------------------------------------------------------------------|
B|-------------------------------------------------------------------|
G|--------------14----------14---16b---16b-16b-16b-----16--16--0-----|	
D|--16--14--16-----16-14-16------------------------------------------|
A|-------------------------------------------------------------------|
E|-------------------------------------------------------------------|

e|-------------------------------------------------------------------|
B|-------------------------------------------------------------------|
G|--14-----14---14----14--14----14-----14------14-----14-----14---14-|	
D|--14h16--16---14----14--14h16-14-----14h16---14-----14h16--14---14-|
A|-------------------------------------------------------------------|
E|-------------------------------------------------------------------|

e|-------------------------------------------------------------------|
B|-------------------------------------------------------------------|
G|--14----14--14---14--14-----------14---16-16b---16b--16b----14---0-|	
D|--14h16-----14---14--14h16--14----14-------------------------------|
A|-------------------------------14----------------------------------|
E|-------------------------------------------------------------------|
                                                                         Repeat To
e|-------------------------------------------------------------------|      Fade
B|-------------------------------------------------------------------|  
G|--14----14--14---14-14-14----14----14--14----14----14--------14--14|
D|--14h16-----14---14-14-14h16-14----14--14h16-14----14h16-14--14--14|
A|-------------------------------------------------------------------|
E|-------------------------------------------------------------------|

e|-------------------------------------------------------------------|
B|-------------------------------------------------------------------|
G|--14------14----14--16--14---16b--16b-16b-16bp14-----14------------|	
D|--14h16---14-------------------------------------16----------------|
A|-------------------------------------------------------------------|
E|-------------------------------------------------------------------|



sadsong.net erfasst Besucherdaten und wertet diese mit Matomo aus.
Falls dies nicht gewünscht ist, klicke bitte hier und setze den Matomo-Deaktivierungs-Cookie.