Band Photos
internnewsthebandthemusicontourextrascommunity
19 User online
lyrics
discographie
videostills
gitarrentabs
reviews

| themusic | gitarrentabs |

ROUND ARE WAY
(Gallagher)

found on the "Wonderwall" single

Chords Used:

	 EADGBe
G	(3x0033)
G/B	(x20033)
Gm/Bb	(x10033)
F	(x33211)
FaddG	(xx3233)
C	(x32010)
Cadd9	(x32033)
D7	(xx0212)

NOTE: What you've got in this song in the verses and the intro is Noel
playing this:

    G	    FaddG  Cadd9 G
e---3----3--3---3--3--3--3--
B---3----3--3---3--3--3--3--
G---0----0--2---2--0--0--0--
D---0----0--3---3--2--2--0--
A---x----x---------3--3--x--
E---3----3---------------3--

While Bonehead plays this (though only Noel is playing in the very
beginning of the song before the rest of the band comes in):

    G	    F	   C	 G
e---3----3--1---1--0--0--3--
B---3----3--1---1--1--1--3--
G---0----0--2---2--0--0--0--
D---0----0--3---3--2--2--0--
A---x----x--3---3--3--3--x--
E---3----3---------------3--

So below, only Bonehead's chords will be listed, but Noel's part is played
along with it:

Verses 1 & 2
------------
    G			  F	  C
The paperboy is working before he goes
G			F	  C
Lying to the teacher he knows he knows
   G					F	C     G     F   C
He didn't and he should've brought his lines in yesterday

G			      F       C
Ernie bangs the sound and the day begins
    G			    F          C
The letter box is open your cash falls in
     G				   F	    C           G   Cadd9  G
I'll meet you at the office just before the staff clock in

Chorus
------
D7			     G
Round are way the birds are singing
D7			     G
Round are way the sun shines bright
D7			     Cadd9
Round are way the birds sing for yer
		 G/B
Cos they already know yer
		  Gm/Bb    Am      G
Yeah they already know yerrrrrrrrrrrr


Little Guitar Solo
------------------

h = hammer on

  G		  F       C	     G		       F	C
e-------------------------------------------------------------------
B-------------------------------------------------------------------
G----3h4-------------3h4-----------------3h4-----------3-----3------
D---------5--3--5---------5--3--5--3----------5--3--5-----5-----5---
A-------------------------------------------------------------------
E-------------------------------------------------------------------


Verses 3 & 4
------------
The game is kicking off in around the park
Its twenty five aside and before it's dark
There's gonna be a loser and you know the next goal wins

Cab it to the front and it's called a draw
Everybody's knocking on your's once more
Ernie bangs the sound
	     F		  C	    G        Cadd9     G
And no one's spoken since half-past four  da da-da-da  da da

Chorus
------
Round are way the birds are singing
Round are way the sun shines bright
Round are way the birds sing for yer
'Coz they already know yer
Yeah the already know yer


[Harmonica solo]


Chorus
------
D7			    G
Round are way the birds are singing
D7			    D7
Round are way the sun shines bright
D7			    D7
Round are way the birds are minging
D7		     G
Round are way it's alright
D7			     Cadd9
Round are way the birds sing for yer
		 G/B
Cos they already know yer
  	     Gm/Bb    Am     G       
They already know yerrrrrrrrrrr

[LONG JAMMING HARMONICA SOLO ENDS SONG OVER THE CHORDS FOR THE VERSES]



sadsong.net erfasst Besucherdaten und wertet diese mit Matomo aus.
Falls dies nicht gewünscht ist, klicke bitte hier und setze den Matomo-Deaktivierungs-Cookie.