Band Photos
internnewsthebandthemusicontourextrascommunity
35 User online
lyrics
discographie
videostills
gitarrentabs
reviews

| themusic | gitarrentabs |

OASIS
One Way Road
track 2 from the single - Who Feels Love?

Chords Used:

D       xx0232
Em7     022030
Bb      113331
Cadd9   x32030
D7      xxx212
Dm      xx0231
G       320033
   
Tune down low E to D for intro 

Intro:

E|---------------------------------------------------
B|---------------------------------------------------
G|---------------------------------------------------
D|-------0---4-------2---2-------2---2-------0---4---
A|-----0---0-------2---2-------2---2-------0---0-----
D|---0-----------2-----------2-----------0-----------



Intro:   D    Em7    Em7    D

Verse:

D                                           Em7
I wanna get high but I never could take the pain
           Em7                           D
'Cos it'll blow away my soul like a hurricane
       D                                    Em7
Like a one man band clappin' in the pourin' rain
     Em7                                            D     
If I know where I'm going I don't know from where I came


Bridge: 

               Bb    Cadd9  D       
Where we gonna be in summer time?
             Bb      Cadd9   D 
Are we gonna see the heavens shine
     Cadd9           G
Like diamonds in the sky?


Chorus:

D7              Dm
As soon as they come
                   Bb   
The feelings they go
               D           Cadd9   G
All alone on a one way road
D7              Dm
As soon as they come
                   Bb
The feelings they go
               D                *Riff 1 x2
All alone on a one way road


*Riff 1:   

       Cadd9       G        D
e|---------------------------------|
B|---------------------------------|
G|---------------------------------| 
D|----15-12-------------15-12------|
A|----------15-12-10~12------------|
E|---------------------------------|

^ = bend
~ = hammer on


Verse:

I wanna get high but I really can't take the pain
'Cos it'll blow away my soul like a hurricane
I'm like a one man band clappin' in the pourin' rain
If I know where I'm going I don't know from where I came

Bridge:
     
And where we gonna be in summer time?
Am I gonna see the heavens shine
Like diamonds in the sky?

Chorus:

As soon as they come 
The feelings they go
All alone on a one way road
As soon as they come 
The feelings they go
All alone on a one way road


Outro:  *Riff 1 x4  *Riff 2

*Riff 2

    Cadd9 G D      Cadd9  G  D     Cadd9        G    D         Cadd9     G    D
e|-----------------------------------------------------------------------------------------|
B|-----------------------------------------------------------------------------------------|
G|---------17~19---19^21----17~19----------------------------------------------------------|
D|--15~17--------------------------15-12-------------15-12-----17~15--17^19--17^19--17^19--|
A|---------------------------------------15-12-10~12---------------------------------------|
E|-----------------------------------------------------------------------------------------|

^ = bend
~ = hammer on



sadsong.net erfasst Besucherdaten und wertet diese mit Matomo aus.
Falls dies nicht gewünscht ist, klicke bitte hier und setze den Matomo-Deaktivierungs-Cookie.