Band Photos
internnewsthebandthemusicontourextrascommunity
9 User online
lyrics
discographie
videostills
gitarrentabs
reviews

| themusic | gitarrentabs |

Author/Artist: Oasis
Title: Fuckin' in the bushes
Album: SOTSOG
Transcribed by: Luc Babineau
Email: lbabineau@hotmail.com

-------------------------|----------------------------------------------------
-------------------------|----------------------------------------------------
-------------------------|----------------------------------------------------
---------------2-----0h2-|----------------------------------------------------
-----------------0h2-----|----------------------------------------------------
--0--3p0--3r0------------|----------------------------------------------------
 Maine Riff/               Repeat most of song                                

----3-----2-----1---------|---------------------------------------------------
----3-----2-----1------17v|---------------------------------------------------
----4-----3-----2---------|---------------------------------------------------
----5-----4-----3---------|---------------------------------------------------
----5-----4-----3---------|---------------------------------------------------
----3-----2-----1---------|---------------------------------------------------
 organ part       (after fourth time add)           4th time/                 

---------------------------|---5----------------|-------5---9b-8-5-8-5--------
---------------------------|-----5--------------|-----5---5------------5------
---------------------------|7b-----7b7r5---5-7b-|--7b-------------------------
-7br5---7br5---7b7r5---7br5|-------------7------|-----------------------------
------7------7-------7-----|--------------------|-----------------------------
---------------------------|--------------------|-----------------------------
                           play 4x but 4th time play this  variation          

--------------|---------------------------------------------------------------
--------------|---------------------------------------------------------------
--7br5---5----|---------------------------------------------------------------
-------7---7v-|----------7b7r5-----------7br5---------7b7r5---7b7r5-----------
--------------|-7-77-77--------7-77-77--------7-77-77-------7-------7---------
--------------|-0-00-00--------0-00-00--------0-00-00-------------------------
                                                                              

---------------|------5---------------|-----5---------------------------------
---------------|----------------------|-------5-------------------------------
---------------|--7b-----7vvvvvvvvvvv-|--7b-----7b7r5---5-7b------------------
---------------|----------------------|---------------7-----------------------
---------------|----------------------|---------------------------------------
---------------|----------------------|---------------------------------------
 Organ part 2X                         play until end with small variations



sadsong.net erfasst Besucherdaten und wertet diese mit Matomo aus.
Falls dies nicht gewünscht ist, klicke bitte hier und setze den Matomo-Deaktivierungs-Cookie.