Band Photos
internnewsthebandthemusicontourextrascommunity
18 User online
lyrics
discographie
videostills
gitarrentabs
reviews

| themusic | gitarrentabs |

DON'T GO AWAY
(Gallagher)

From the album "Be Here Now"

Tabbed by Fred Lidskog <swede@email.unc.edu>

Chords Used:

	 EADGBe
Am7	(x02213)
G	(3x0033)
FaddG	(xx3213)
Fm	(x33111)
Dsus4	(xx0233) 
C	(x32010)
C/B	(x2x010)
Cmaj7add9 (x32003)

Tab Key:

b = bend (7b8 means bend the string at the 7th fret to make the note the
	string would make if played at the 8th fret with no bend)
r= release bend
h = hammer on
p = pull off
s = slide, sounds like one note
/ = a slower slide, sounds like 2 different notes
~~~ = vibrato (alternate bending string slightly and releasing making a
		wavy sound)
() = harmonics, (7) means have your finger lightly touching the string
	just slightly above the 7th fret, then pick the string

Intro
=====

       Am7    G			 FaddG           D5      FaddG   Am7      G
e------------------------------------------------------------------------------
B------------------------------------------------------------------------------
G------5h7~~~~~--7b8.5--7--5--7--5b5.5-----------------------------5h7~~~~b8.5-
D--5h7----------------------------------7--(7)(7)----------7---5h7-------------
A------------------------------------------------5b6r5--0----------------------
E------------------------------------------------------------------------------
		 FaddG		    D5     FaddG
e----------------------------------------------------------
B----------------------------------------------------------
G-b8.5r-7--5--7--5b5.5------------------------------5------
D-----------------------7----(7)(7)-----------7--------7---
A-----------------------------------5b6r5--0---------------
E----------------------------------------------------------

Verse 1
=======

  Am7				   G
A cold and frosty morning, there's not alot to say
	  FaddG		      Dsus4 FaddG
'bout the things caught in my mind
    Am7			      G
And as the day was dawning my plane flew away
 	     FaddG		 Dsus4 FaddG
With all the things caught in my mind

Pre-Chorus:
===========

NOTE: Fill #1a below is played with an electric guitar with a slightly
distorted sound. Fill #1a is played repeatedly throughout all
pre-choruses, choruses, and towards the end of the 2nd verse. Sometimes,
it is slightly varied from what is listed below, see Fill #1b. Listen to
the song for the correct rhythm.

Fill #1a			Fill #1b
========			========

e----------3--------------------------------3-------------------------------
B-0--1--------1-----------------1--0--1--------1----------------------------
G-------0--------------------------------0----------------------------------
D---------------------------------------------------------------------------
A---------------------------------------------------------------------------
E---------------------------------------------------------------------------

D5				    FaddG
   I don't wanna be there when you're coming down
D5				   FaddG		  G
   I don't wanna be there when you hit the the ground (so don't)

Chorus
======
   G        C		      C/B
So don't go away saying what you say
		Am		   G
Say that you'll stay forever and a day
		  FaddG			 G
In the time of my life, 'cos I need more time
		 Am           G	 	  FaddG
Said I need more time just to make things right
e---------------------------------------------------------------------------
B---------------------------------------------------------------------------
G-----------------------------------------7bbbb9---------b9r7--5------------
D-----------------------------------------------------------------7~~~~~----
A---------------------------------------------------------------------------
E---------------------------------------------------------------------------

Verse 2
=======
Damn my situation and the games I have to play
With all the things caught in my mind
Damn my education I can't find the words to say
With all the things caught in my mind

Pre-Chorus
==========
I don't wanna be there when you're coming down
I don't wanna be there when you hit the ground

Chorus
======
So don't go away saying what you say
Say that you'll stay forever and a day
In the time of my life 'cos I need more time
	        Am	     G		 FaddG    Fm
Yes I need more time just to make things right
Me and you: what's going on
  C		   C/B		   Am7
e---------------------------------------------------------------------------
B---------------------------------------------------------------------------
G---------5--7--5--7b8r7--5-----5--5b5.5------------------------------------
D----5h7---------------------7------------7---------------------------------
A---------------------------------------------------------------------------
E---------------------------------------------------------------------------

FaddG			   Fm
All we seem to know is how   to show the feelings that are wrong

  C		   C/B		   Am7	       G	 FaddG
e----------------------------------------------8---8h10--8--------8--8---
B---------------------------------------8--10---------------8h10---------
G---------5--7--5--7b8r7--5-----5--7s9-----------------------------------
D----5h7---------------------7-------------------------------------------
A------------------------------------------------------------------------
E------------------------------------------------------------------------

		      G
				           So don't 			
e-------8-8h10-8------8--------8--8--------8--8h10--8--
B--8h10----------8h10----8h10--------8h10--------------
G------------------------------------------------------
D------------------------------------------------------
A------------------------------------------------------
E------------------------------------------------------

[CHORUS] played twice, then:

All instruments except 3 acoustic guitars fade out:
It's tough to hear which guitar is playing what, but here's the whole part
simplified:
	1)Guitar #1 is playing the chords above the tab
	2)Guitar #2 is playing a little riff similar to Riff #1 repeatedly
	3)Guitar #3 is playing the tabbed part below Riff #2

Riff #2 (played by guitar #2)
=======
e------3--------3-----------------------------------------------------------
B-0-1-----1--1-----1--------------------------------------------------------
G---------------------------------------------------------------------------
D---------------------------------------------------------------------------
A---------------------------------------------------------------------------
E---------------------------------------------------------------------------

Guitar #1 is playing the chords, Guitar #3 plays the tabbed part:

  C	C/B	Am7	G	FaddG	G	 C  C/B    Am7
e---------------------------------------------------------------------------
B---------------------------------------------------------------------------
G---------------------------------------------------------------------------
D-------------------------------3-------------------------------0h2--0h2----
A-3------2-------0--------------------------0h2--3---2-----0----------------
E-----------------------3---------------3---------------3-------------------

   C  C/B   Am7               C   C/B     Am7	   G	   Cmaj7add9
e--------------------------------------------------------------3-------
B--------------------------------------------------------------0-------
G--------------------------------------------------------------0-------
D-----------------0h2--0h2-------------------------------------2-------
A--3---2-----0----------------3---2h3p2----0-------------------3-------
E---------3-----------------------------3----------3-------------------

Song ends with all guitars playing a "Cmaj7add9"



sadsong.net erfasst Besucherdaten und wertet diese mit Matomo aus.
Falls dies nicht gewünscht ist, klicke bitte hier und setze den Matomo-Deaktivierungs-Cookie.