Band Photos
internnewsthebandthemusicontourextrascommunity
30 User online
lyrics
discographie
videostills
gitarrentabs
reviews

| themusic | gitarrentabs |

ANGEL CHILD
(Gallagher)

From the single "D'You Know What I Mean?"
Tabbed by Fred Lidskog <swede@email.unc.edu>

Chords used:

	 EADGBe
Am	(x02210)
Am7	(x02213)
Em	(022000)
Dsus2	(xx0230)
D?	(xx0130)
D??	(xx0030)
F	(x33211)
Fadd9	(xx3213)
C	(x32010)
CaddG	(x32013)
G	(3x0033)

Tab Key:

b = bend (7b8 means bend the string at the 7th fret to make the note the
string would make if played at the 8th fret with no bend)
r = release bend
h = hammer on
p = pull off
s = slide (real fast slide, sounds like only one note)
/ = slower slide (sounds like 2 notes)
* = strum chord slowly so you hear each note separately

What you've got in this song is 3 acoustic guitars playing, one
playing the basic chords, and the others mixing fills with chords.
Listed below are first the chords that guitar #1 is playing and tabbed out
are the main fills played by guitars #2 and #3.

Fill #1 (the most commonly used):

   Am	    Em   Dsus2		Am *     Em   Dsus2  	    Am*
e---------------------0----0-------0--------------0----0--0---0-------------
B---------------------3s5--3--0----0--------------3s5--3--0---0-------------
G----------------------------------5--------------------------5-------------
D----------------------------------7--------------------------7-------------
A----------------------------------0--------------------------0-------------
E---------------------------------------------------------------------------

Fill #2:
   Am	 Am7	  Em    Dsus2
e---0--0--3p0--0--0--0--0----------------------------------------------------
B---1-------------0--0--3----------------------------------------------------
G---2-------------0--0--2----------------------------------------------------
D---2-------------2--2--0----------------------------------------------------
A---0-------------2--2-------------------------------------------------------
E-----------------0--0-------------------------------------------------------

Fill #3:
   Am		  Em    Dsus2
e---0--0----------0--0--0----------------------------------------------------
B---1--1----------0--0--3----------------------------------------------------
G---2--2------0---0--0--2----------------------------------------------------
D---2--2--0h2-----2--2--0----------------------------------------------------
A---0--0----------2--2-------------------------------------------------------
E-----------------0--0-------------------------------------------------------

Fill #4
   Am *		  Em    Dsus2
e-----3--3-0------------------------------------------------------------------
B-----1------1-0---------------------------------------------------------------
G-----2----------------------------------------------------------------------
D-----2---------------------------------------------------------------------
A-----0----------------------------------------------------------------------
E---------------------------------------------------------------------------

Verse 1:

          Am      Em  Dsus2
Won't you take me
          Am 		 Em	 Dsus2
Won't you take me to the edge of night and
Am	Em  Dsus2
Make me
	  Am             Em	Dsus2
Won't you make me walk into the light
		  Am	  Em   Dsus2
And there will be no eyes
   	     Am			  Em	     Dsus2	
No eyes that see such beauty that lose their sight,
		  Am	   Em   Dsus2
And there will be no lies,
   Am				Em	    Dsus2
No lies that you can tell me to make things right,

Pre-chorus
----------

Play first two Pre-Chorus lines with "Fill #5" below:

        F	    C	     G	        D      
e---------------------------------------------------------------------------
B---------------1---------1-------------------------------------------------
G-----------2----------0----------------------------------------------------
D-------3-----------2-------------------------------------------------------
A---------------------------------------------------------------------------
E---------------------------------------------------------------------------

	F	    C	     G		D
Cause I gave all my money to people and things
        F		C	       G	    D
And the price I'm still paying for the shit that it brings
	F	     C		  G		 D
Doesn't fill me with hope for the songs that you sing 

  Dsus2               D?		 D??		    G     D
Tonight, this is your life, this is your life,	            angel child
e----------0-------------------0------------------0--------------------------
B-------3-----3-------------3-----3------------3-----3-----------------------
G----2-----------2-------1-----------1------0-----------0--------------------
D-0-------------------0------------------0-----------------------------------
A----------------------------------------------------------------------------
E----------------------------------------------------------------------------

  Dsus2		      D?		 D??   G     D        
Tonight, this is your life, this is your life, angel child 

[VERSE]

2nd Pre-Chorus
--------------

For the first two lines of "Pre-Chorus #2", play "Fill #6":

	F	    C	       G	D
e------------3-----------3-----3----3---2--3p2----------------------------
B----------------1----------1--3----3---3------3--------------------------
G------------------------------0----0---2---------------------------------
D-------3-----------2----------0----0---0---------------------------------
A------------------------------x----x-------------------------------------
E------------------------------3----3-------------------------------------

Then for the 3rd and 4th lines, go back to "Fill #5"


Bridge:

[NOTE: Here we have 3 guitars playing, one playing the chords above the
tab, one playing the fill directly below, and the third plays the guitar
solo]

   F		C       E     Am
e--3--3--3--3-/-1--1---------------------------------------------------------
B--5--5--5--5-/-3--3--------------------------------------------------------
G--------------------------1--2----------------------------------------------
D-----------------------2------------------------------------------------------
A---------------------------------------------------------------------------
E---------------------------------------------------------------------------

Guitar Solo:

    F	   C		      E          Am          F     C  
e---------------------------------------------------------------------------
B---------------------------------------------------------------------------
G--------5-------------------------------5-------5-------5------------------
D---5s7-----------5----------------5--7------5h7-----5h7---------5----------
A------------5s7-----7--5/3---5s7---------------------------5s7-----7/5-3---
E---------------------------------------------------------------------------

  E	    Am            F	       C       E	      Am  
e---------------------------------------------------8--8h10p8----------------
B--------------------------------------8--10---8h10-----------10-------------
G------------------5h7-5-------5--7s9---------------------------------5h7-5--
D-----5--------5h7--------5h7-------------------------------------5h7--------
A-5s7---7/5-3----------------------------------------------------------------
E----------------------------------------------------------------------------
   F	       C       G
e---------------------------------------------------------------------------
B---------------------------------------------------------------------------
G--------------5--7----7b8--7--5--5h7---------------------------------------
D------3--5s7---------------------------------------------------------------
A--3h5----------------------------------------------------------------------
E---------------------------------------------------------------------------

[PLAY CHORUS MANY MANY TIMES]

Then:
As the main guitars fade out, a muffled-sounding guitar fades in, playing:


e--------2--0---2------------2--0---2------------2--0---2-------2--
B------------------3-------------------3-------------------3----3--
G-----2-------------------1-------------------0-----------------2--
D--0-------------------0-------------------0--------------------0--
A------------------------------------------------------------------
E------------------------------------------------------------------



sadsong.net erfasst Besucherdaten und wertet diese mit Matomo aus.
Falls dies nicht gewünscht ist, klicke bitte hier und setze den Matomo-Deaktivierungs-Cookie.